Como marcar tonos menores en un bajo electrico

#1 el 17/02/2007
Publicidad
Hace unos años que toco la guitarra y ahora el bajo pero nose como pasar un Lam de la guitarra al bajo .
Subir
#2 el 17/02/2007
Hola Juan, podes tocar todo tipo de acordes, tenes que aprenderte voicings que te gusten y transportarlos a la nota correspondiente. Tambien podes usar inversiones.

Eso en cuanto a lo armonico; otra opcion es usar el arpegio (notas que forman el acorde) para armar una base.

Lam:
532x
x322
5775
x12109

esos son voicings, ahora para hacer el arpegio:
1|-------------------------------
2|-------------------------------
3|----3-7---3-7-3---7-3-7--------
4|--5-----5-------5--------------

Un chord melody:
1|--------------2-2----------------------7-7s9-9-7--7-7-9-----------
2|--2--s3-3s2-2---2---2--s3-3s2-2--5-5---5------------7---10--s9----
3|--3-------------3---3------------------7------------8-------------
4|--5-------------5---3---------------------------------------------
....Am...........Am...C.................Em7.........Fadd9

Espero te sirva, un abrazo
Subir
#3 el 17/02/2007
Uy que mal que salio... hace esto, crea un nuevo documento de texto (del bloc de notas), copia mi post y pegalo ahi (si tiene la fuente estandar, courier new se va a ver bien).
Saludos
Subir
Respuesta rápida
Identíficate o regístrate para poder responder en este hilo.