Ayuda con escalas Exoticas

  • 2
pirator
#16 por pirator el 30/03/2008
bueno, en un concepto amplio, una escala es simplemente un ordenamiento de sonidos. La escala dodecafónica ya rompe con la tradición de la direccionalidad intervalica (siempre en el mismo sentido) y la homogeneidad de los intervalos (generalmente segundas, o en el pentatonismo terceras) de las escalas tradicionales.
Creo que un buen concepto de escala, que englobe todos los tipos de músicas, sería

Escala: ordenamiento de sonidos

A partir de ahí, cada compositor puede elegir un ordenamiento preexistente, o crear uno nuevo para cada obra, o lo que le plazca.
Subir
triperio
#17 por triperio el 30/03/2008
aquí te dejo algunas escalas exóticas

Pelog
de las familia de las escalas pentatónicas japonesas pero posee 6 notas. Se puede practicar arriba de D menor o A Frigio Dominante.

la-sib-do-reb-mi-fa-la-sib-do-reb-mi-fa

e|-------------------------------------------------
B|--------------------------5--6---------------------
G|--------------------5--6---------------------------
D|---------------7-8---------------------------------
A|--------4-7-8---------------------------------------
E|-5-6-8----------------------------------------------

Hirojoshi
Escala japonesa. Pueden probarla sobnre un acorde menor o menor con 6ta bemol, entre otros.

la-si-do-mi-fa-la-si-do-mi-fa-la-si

e|---------------------------------5--7--------------
B|--------------------------5--6---------------------
G|--------------------4--5---------------------------
D|---------------7----------------------------------
A|---------7-8---------------------------------------
E|-5-7-8----------------------------------------------
Subir
Hilos similares
Respuesta rápida

Regístrate o para poder postear en este hilo