Grabación de guitarras contundentes

falkys
#61 por falkys el 30/09/2006
yo hago como muchos de aqui q grabais 2 pistas y luego las paneo una a cada lado pero no del todo, un 90% o asi. sin nada de reverb para q suenen al frente, lo mas cerca posible.

tb intento q la ejecucion no sea exactamente igual, metiendo algun matiz en los acordes, abriendo uno de ellos un poco mas añadiendo alguna cuerda mas grave o aguda, segun.

por ejem. al tocar unas "quintas" este truquillo va genial:

|--------------------------
|--------------------------
|----5--------------------- (Guitarra 1)
|----5---------------------
|----3---------------------
|--------------------------
|
|
|--------------------------
|--------------------------
|-------------------------- (Guitarra 2)
|----5---------------------
|----3---------------------
|----3---------------------

he grabado un par de pistas con esta "tecnica" con 3 acordes (do-re-mi) para q veais como suena, supongo q muchos tb grabareis asi:

salu2
Subir
weld
#62 por weld el 30/09/2006
Tienes mucha razon en lo que dices Pedal.

yo ahora me he pasado al Twin reverb con tres micros y el potenciometro por encima del 8....con previo.
Subir
Hilos similares
Respuesta rápida

Regístrate o para poder postear en este hilo